ISO-10303-21;
HEADER;
/* Generated by software containing ST-Developer
 * from STEP Tools, Inc. (www.steptools.com) 
 */

FILE_DESCRIPTION(
/* description */ (''),
/* implementation_level */ '2;1');

FILE_NAME(
/* name */ 'C:\\Users\\jenniferk\\Desktop\\16682.stp',
/* time_stamp */ '2020-11-24T17:02:25-05:00',
/* author */ ('jenniferk'),
/* organization */ (''),
/* preprocessor_version */ 'ST-DEVELOPER v18.1',
/* originating_system */ 'Autodesk Inventor 2020',
/* authorisation */ '');

FILE_SCHEMA (('AUTOMOTIVE_DESIGN { 1 0 10303 214 3 1 1 }'));
ENDSEC;

DATA;
#10=MECHANICAL_DESIGN_GEOMETRIC_PRESENTATION_REPRESENTATION('',(#96,#97,
#98,#99,#100,#101,#102),#214);
#11=SHAPE_REPRESENTATION_RELATIONSHIP('SRR','None',#224,#12);
#12=ADVANCED_BREP_SHAPE_REPRESENTATION('',(#13),#213);
#13=MANIFOLD_SOLID_BREP('Solid1',#109);
#14=TOROIDAL_SURFACE('',#137,0.158,0.078);
#15=PLANE('',#136);
#16=PLANE('',#144);
#17=CYLINDRICAL_SURFACE('',#132,0.078);
#18=CYLINDRICAL_SURFACE('',#142,0.078);
#19=FACE_OUTER_BOUND('',#25,.T.);
#20=FACE_OUTER_BOUND('',#26,.T.);
#21=FACE_OUTER_BOUND('',#27,.T.);
#22=FACE_OUTER_BOUND('',#28,.T.);
#23=FACE_OUTER_BOUND('',#29,.T.);
#24=FACE_OUTER_BOUND('',#30,.T.);
#25=EDGE_LOOP('',(#69,#70,#71,#72));
#26=EDGE_LOOP('',(#73,#74,#75,#76,#77,#78));
#27=EDGE_LOOP('',(#79));
#28=EDGE_LOOP('',(#80,#81,#82,#83,#84,#85,#86,#87));
#29=EDGE_LOOP('',(#88,#89,#90,#91,#92,#93));
#30=EDGE_LOOP('',(#94));
#31=LINE('',#187,#34);
#32=LINE('',#191,#35);
#33=LINE('',#209,#36);
#34=VECTOR('',#151,0.063);
#35=VECTOR('',#156,0.078);
#36=VECTOR('',#179,0.078);
#37=CIRCLE('',#130,0.078);
#38=CIRCLE('',#131,0.048);
#39=CIRCLE('',#133,0.078);
#40=CIRCLE('',#134,0.078);
#41=CIRCLE('',#135,0.078);
#42=CIRCLE('',#138,0.08);
#43=CIRCLE('',#139,0.078);
#44=CIRCLE('',#140,0.078);
#45=CIRCLE('',#141,0.078);
#46=CIRCLE('',#143,0.078);
#47=VERTEX_POINT('',#184);
#48=VERTEX_POINT('',#186);
#49=VERTEX_POINT('',#190);
#50=VERTEX_POINT('',#192);
#51=VERTEX_POINT('',#194);
#52=VERTEX_POINT('',#199);
#53=VERTEX_POINT('',#201);
#54=VERTEX_POINT('',#203);
#55=VERTEX_POINT('',#207);
#56=EDGE_CURVE('',#47,#47,#37,.T.);
#57=EDGE_CURVE('',#47,#48,#31,.T.);
#58=EDGE_CURVE('',#48,#48,#38,.T.);
#59=EDGE_CURVE('',#47,#49,#32,.T.);
#60=EDGE_CURVE('',#50,#49,#39,.T.);
#61=EDGE_CURVE('',#51,#50,#40,.T.);
#62=EDGE_CURVE('',#49,#51,#41,.T.);
#63=EDGE_CURVE('',#50,#52,#42,.T.);
#64=EDGE_CURVE('',#52,#53,#43,.T.);
#65=EDGE_CURVE('',#53,#54,#44,.T.);
#66=EDGE_CURVE('',#54,#52,#45,.T.);
#67=EDGE_CURVE('',#55,#55,#46,.T.);
#68=EDGE_CURVE('',#55,#54,#33,.T.);
#69=ORIENTED_EDGE('',*,*,#56,.T.);
#70=ORIENTED_EDGE('',*,*,#57,.T.);
#71=ORIENTED_EDGE('',*,*,#58,.T.);
#72=ORIENTED_EDGE('',*,*,#57,.F.);
#73=ORIENTED_EDGE('',*,*,#56,.F.);
#74=ORIENTED_EDGE('',*,*,#59,.T.);
#75=ORIENTED_EDGE('',*,*,#60,.F.);
#76=ORIENTED_EDGE('',*,*,#61,.F.);
#77=ORIENTED_EDGE('',*,*,#62,.F.);
#78=ORIENTED_EDGE('',*,*,#59,.F.);
#79=ORIENTED_EDGE('',*,*,#58,.F.);
#80=ORIENTED_EDGE('',*,*,#61,.T.);
#81=ORIENTED_EDGE('',*,*,#63,.T.);
#82=ORIENTED_EDGE('',*,*,#64,.T.);
#83=ORIENTED_EDGE('',*,*,#65,.T.);
#84=ORIENTED_EDGE('',*,*,#66,.T.);
#85=ORIENTED_EDGE('',*,*,#63,.F.);
#86=ORIENTED_EDGE('',*,*,#60,.T.);
#87=ORIENTED_EDGE('',*,*,#62,.T.);
#88=ORIENTED_EDGE('',*,*,#67,.F.);
#89=ORIENTED_EDGE('',*,*,#68,.T.);
#90=ORIENTED_EDGE('',*,*,#65,.F.);
#91=ORIENTED_EDGE('',*,*,#64,.F.);
#92=ORIENTED_EDGE('',*,*,#66,.F.);
#93=ORIENTED_EDGE('',*,*,#68,.F.);
#94=ORIENTED_EDGE('',*,*,#67,.T.);
#95=CONICAL_SURFACE('',#129,0.063,0.785398163397448);
#96=STYLED_ITEM('',(#234),#103);
#97=STYLED_ITEM('',(#234),#104);
#98=STYLED_ITEM('',(#234),#105);
#99=STYLED_ITEM('',(#234),#106);
#100=STYLED_ITEM('',(#234),#107);
#101=STYLED_ITEM('',(#234),#108);
#102=STYLED_ITEM('',(#233),#13);
#103=ADVANCED_FACE('',(#19),#95,.T.);
#104=ADVANCED_FACE('',(#20),#17,.T.);
#105=ADVANCED_FACE('',(#21),#15,.F.);
#106=ADVANCED_FACE('',(#22),#14,.T.);
#107=ADVANCED_FACE('',(#23),#18,.T.);
#108=ADVANCED_FACE('',(#24),#16,.T.);
#109=CLOSED_SHELL('',(#103,#104,#105,#106,#107,#108));
#110=DERIVED_UNIT_ELEMENT(#112,1.);
#111=DERIVED_UNIT_ELEMENT(#218,3.);
#112=(
MASS_UNIT()
NAMED_UNIT(*)
SI_UNIT($,.GRAM.)
);
#113=DERIVED_UNIT((#110,#111));
#114=MEASURE_REPRESENTATION_ITEM('density measure',
POSITIVE_RATIO_MEASURE(1.),#113);
#115=PROPERTY_DEFINITION_REPRESENTATION(#120,#117);
#116=PROPERTY_DEFINITION_REPRESENTATION(#121,#118);
#117=REPRESENTATION('material name',(#119),#213);
#118=REPRESENTATION('density',(#114),#213);
#119=DESCRIPTIVE_REPRESENTATION_ITEM('Generic','Generic');
#120=PROPERTY_DEFINITION('material property','material name',#226);
#121=PROPERTY_DEFINITION('material property','density of part',#226);
#122=DATE_TIME_ROLE('creation_date');
#123=APPLIED_DATE_AND_TIME_ASSIGNMENT(#124,#122,(#226));
#124=DATE_AND_TIME(#125,#126);
#125=CALENDAR_DATE(2020,24,11);
#126=LOCAL_TIME(22,2,12.,#127);
#127=COORDINATED_UNIVERSAL_TIME_OFFSET(0,0,.BEHIND.);
#128=AXIS2_PLACEMENT_3D('placement',#182,#145,#146);
#129=AXIS2_PLACEMENT_3D('',#183,#147,#148);
#130=AXIS2_PLACEMENT_3D('',#185,#149,#150);
#131=AXIS2_PLACEMENT_3D('',#188,#152,#153);
#132=AXIS2_PLACEMENT_3D('',#189,#154,#155);
#133=AXIS2_PLACEMENT_3D('',#193,#157,#158);
#134=AXIS2_PLACEMENT_3D('',#195,#159,#160);
#135=AXIS2_PLACEMENT_3D('',#196,#161,#162);
#136=AXIS2_PLACEMENT_3D('',#197,#163,#164);
#137=AXIS2_PLACEMENT_3D('',#198,#165,#166);
#138=AXIS2_PLACEMENT_3D('',#200,#167,#168);
#139=AXIS2_PLACEMENT_3D('',#202,#169,#170);
#140=AXIS2_PLACEMENT_3D('',#204,#171,#172);
#141=AXIS2_PLACEMENT_3D('',#205,#173,#174);
#142=AXIS2_PLACEMENT_3D('',#206,#175,#176);
#143=AXIS2_PLACEMENT_3D('',#208,#177,#178);
#144=AXIS2_PLACEMENT_3D('',#210,#180,#181);
#145=DIRECTION('axis',(0.,0.,1.));
#146=DIRECTION('refdir',(1.,0.,0.));
#147=DIRECTION('center_axis',(0.,1.,0.));
#148=DIRECTION('ref_axis',(-1.,0.,0.));
#149=DIRECTION('center_axis',(0.,-1.,0.));
#150=DIRECTION('ref_axis',(-1.,0.,0.));
#151=DIRECTION('',(-0.707106781186547,-0.707106781186548,8.65956056235493E-17));
#152=DIRECTION('center_axis',(0.,1.,0.));
#153=DIRECTION('ref_axis',(-1.,0.,0.));
#154=DIRECTION('center_axis',(0.,-1.,0.));
#155=DIRECTION('ref_axis',(-1.,0.,0.));
#156=DIRECTION('',(0.,1.,0.));
#157=DIRECTION('center_axis',(0.,1.,0.));
#158=DIRECTION('ref_axis',(1.,0.,0.));
#159=DIRECTION('center_axis',(0.,1.,0.));
#160=DIRECTION('ref_axis',(1.,0.,0.));
#161=DIRECTION('center_axis',(0.,1.,0.));
#162=DIRECTION('ref_axis',(1.,0.,0.));
#163=DIRECTION('center_axis',(0.,1.,0.));
#164=DIRECTION('ref_axis',(0.,0.,1.));
#165=DIRECTION('center_axis',(-1.,0.,0.));
#166=DIRECTION('ref_axis',(0.,0.,1.));
#167=DIRECTION('center_axis',(1.,0.,0.));
#168=DIRECTION('ref_axis',(0.,0.,1.));
#169=DIRECTION('center_axis',(0.,0.,-1.));
#170=DIRECTION('ref_axis',(-1.,0.,0.));
#171=DIRECTION('center_axis',(0.,0.,-1.));
#172=DIRECTION('ref_axis',(-1.,0.,0.));
#173=DIRECTION('center_axis',(0.,0.,-1.));
#174=DIRECTION('ref_axis',(-1.,0.,0.));
#175=DIRECTION('center_axis',(0.,0.,1.));
#176=DIRECTION('ref_axis',(-1.,0.,0.));
#177=DIRECTION('center_axis',(0.,0.,1.));
#178=DIRECTION('ref_axis',(-1.,0.,0.));
#179=DIRECTION('',(0.,0.,-1.));
#180=DIRECTION('center_axis',(0.,0.,1.));
#181=DIRECTION('ref_axis',(1.,0.,0.));
#182=CARTESIAN_POINT('',(0.,0.,0.));
#183=CARTESIAN_POINT('Origin',(0.,-35.957,-0.158));
#184=CARTESIAN_POINT('',(0.078,-35.942,-0.158));
#185=CARTESIAN_POINT('Origin',(0.,-35.942,-0.158));
#186=CARTESIAN_POINT('',(0.048,-35.972,-0.158));
#187=CARTESIAN_POINT('',(0.063,-35.957,-0.158));
#188=CARTESIAN_POINT('Origin',(0.,-35.972,-0.158));
#189=CARTESIAN_POINT('Origin',(0.,-0.158,-0.158));
#190=CARTESIAN_POINT('',(0.078,-0.158,-0.158));
#191=CARTESIAN_POINT('',(0.078,-0.158,-0.158));
#192=CARTESIAN_POINT('',(9.55224503334935E-18,-0.158,-0.08));
#193=CARTESIAN_POINT('Origin',(0.,-0.158,-0.158));
#194=CARTESIAN_POINT('',(-0.078,-0.158,-0.158));
#195=CARTESIAN_POINT('Origin',(0.,-0.158,-0.158));
#196=CARTESIAN_POINT('Origin',(0.,-0.158,-0.158));
#197=CARTESIAN_POINT('Origin',(-5.39230548853566E-18,-35.972,-0.158));
#198=CARTESIAN_POINT('Origin',(0.,-0.158,0.));
#199=CARTESIAN_POINT('',(9.55224503334935E-18,-0.078,0.));
#200=CARTESIAN_POINT('Origin',(9.55224503334935E-18,-0.158,0.));
#201=CARTESIAN_POINT('',(-0.078,9.55224503334935E-18,0.));
#202=CARTESIAN_POINT('Origin',(0.,0.,0.));
#203=CARTESIAN_POINT('',(0.078,9.55224503334935E-18,0.));
#204=CARTESIAN_POINT('Origin',(0.,0.,0.));
#205=CARTESIAN_POINT('Origin',(0.,0.,0.));
#206=CARTESIAN_POINT('Origin',(0.,0.,0.));
#207=CARTESIAN_POINT('',(0.078,9.55224503334935E-18,0.374));
#208=CARTESIAN_POINT('Origin',(0.,0.,0.374));
#209=CARTESIAN_POINT('',(0.078,9.55224503334935E-18,0.));
#210=CARTESIAN_POINT('Origin',(-5.39230548853566E-18,0.,0.374));
#211=UNCERTAINTY_MEASURE_WITH_UNIT(LENGTH_MEASURE(0.000393700787401575),
#216,'DISTANCE_ACCURACY_VALUE',
'Maximum model space distance between geometric entities at asserted c
onnectivities');
#212=UNCERTAINTY_MEASURE_WITH_UNIT(LENGTH_MEASURE(0.000393700787401575),
#216,'DISTANCE_ACCURACY_VALUE',
'Maximum model space distance between geometric entities at asserted c
onnectivities');
#213=(
GEOMETRIC_REPRESENTATION_CONTEXT(3)
GLOBAL_UNCERTAINTY_ASSIGNED_CONTEXT((#211))
GLOBAL_UNIT_ASSIGNED_CONTEXT((#216,#220,#221))
REPRESENTATION_CONTEXT('','3D')
);
#214=(
GEOMETRIC_REPRESENTATION_CONTEXT(3)
GLOBAL_UNCERTAINTY_ASSIGNED_CONTEXT((#212))
GLOBAL_UNIT_ASSIGNED_CONTEXT((#216,#220,#221))
REPRESENTATION_CONTEXT('','3D')
);
#215=DIMENSIONAL_EXPONENTS(1.,0.,0.,0.,0.,0.,0.);
#216=(
CONVERSION_BASED_UNIT('inch',#219)
LENGTH_UNIT()
NAMED_UNIT(#215)
);
#217=(
LENGTH_UNIT()
NAMED_UNIT(*)
SI_UNIT(.MILLI.,.METRE.)
);
#218=(
LENGTH_UNIT()
NAMED_UNIT(*)
SI_UNIT(.CENTI.,.METRE.)
);
#219=LENGTH_MEASURE_WITH_UNIT(LENGTH_MEASURE(25.4),#217);
#220=(
NAMED_UNIT(*)
PLANE_ANGLE_UNIT()
SI_UNIT($,.RADIAN.)
);
#221=(
NAMED_UNIT(*)
SI_UNIT($,.STERADIAN.)
SOLID_ANGLE_UNIT()
);
#222=SHAPE_DEFINITION_REPRESENTATION(#223,#224);
#223=PRODUCT_DEFINITION_SHAPE('',$,#226);
#224=SHAPE_REPRESENTATION('',(#128),#213);
#225=PRODUCT_DEFINITION_CONTEXT('part definition',#230,'design');
#226=PRODUCT_DEFINITION('Assembly6_Shrinkwrap_1',
'Assembly6_Shrinkwrap_1',#227,#225);
#227=PRODUCT_DEFINITION_FORMATION('',$,#232);
#228=PRODUCT_RELATED_PRODUCT_CATEGORY('Assembly6_Shrinkwrap_1',
'Assembly6_Shrinkwrap_1',(#232));
#229=APPLICATION_PROTOCOL_DEFINITION('international standard',
'automotive_design',2009,#230);
#230=APPLICATION_CONTEXT(
'Core Data for Automotive Mechanical Design Process');
#231=PRODUCT_CONTEXT('part definition',#230,'mechanical');
#232=PRODUCT('Assembly6_Shrinkwrap_1','Assembly6_Shrinkwrap_1',$,(#231));
#233=PRESENTATION_STYLE_ASSIGNMENT((#235));
#234=PRESENTATION_STYLE_ASSIGNMENT((#236));
#235=SURFACE_STYLE_USAGE(.BOTH.,#241);
#236=SURFACE_STYLE_USAGE(.BOTH.,#242);
#237=SURFACE_STYLE_RENDERING_WITH_PROPERTIES($,#249,(#239));
#238=SURFACE_STYLE_RENDERING_WITH_PROPERTIES($,#250,(#240));
#239=SURFACE_STYLE_TRANSPARENT(0.);
#240=SURFACE_STYLE_TRANSPARENT(0.);
#241=SURFACE_SIDE_STYLE('',(#243,#237));
#242=SURFACE_SIDE_STYLE('',(#244,#238));
#243=SURFACE_STYLE_FILL_AREA(#245);
#244=SURFACE_STYLE_FILL_AREA(#246);
#245=FILL_AREA_STYLE('',(#247));
#246=FILL_AREA_STYLE('',(#248));
#247=FILL_AREA_STYLE_COLOUR('',#249);
#248=FILL_AREA_STYLE_COLOUR('',#250);
#249=COLOUR_RGB('',0.749019607843137,0.749019607843137,0.749019607843137);
#250=COLOUR_RGB('',0.0901960784313725,0.0901960784313725,0.0901960784313725);
ENDSEC;
END-ISO-10303-21;
