ISO-10303-21;
HEADER;
/* Generated by software containing ST-Developer
 * from STEP Tools, Inc. (www.steptools.com) 
 */

FILE_DESCRIPTION(
/* description */ (
'SAFETY RETAINING CLIP 30 MM SIZE, FOR 13 MM BALL STUD'),
/* implementation_level */ '2;1');

FILE_NAME(
/* name */ '16302-SS.stp',
/* time_stamp */ '2023-11-22T11:00:30-05:00',
/* author */ ('dtinay'),
/* organization */ (''),
/* preprocessor_version */ 'ST-DEVELOPER v20',
/* originating_system */ 'Autodesk Inventor 2024',
/* authorisation */ '');

FILE_SCHEMA (('AUTOMOTIVE_DESIGN { 1 0 10303 214 3 1 1 }'));
ENDSEC;

DATA;
#10=MECHANICAL_DESIGN_GEOMETRIC_PRESENTATION_REPRESENTATION('',(#13),#364);
#11=SHAPE_REPRESENTATION_RELATIONSHIP('SRR','None',#375,#12);
#12=ADVANCED_BREP_SHAPE_REPRESENTATION('',(#14),#363);
#13=STYLED_ITEM('',(#384),#14);
#14=MANIFOLD_SOLID_BREP('Solid2',#104);
#15=PLANE('',#141);
#16=PLANE('',#142);
#17=LINE('',#357,#18);
#18=VECTOR('',#173,0.02325);
#19=CYLINDRICAL_SURFACE('',#139,0.02325);
#20=B_SPLINE_CURVE_WITH_KNOTS('',3,(#340,#341,#342,#343,#344,#345,#346,
#347,#348,#349,#350,#351,#352,#353),.UNSPECIFIED.,.F.,.F.,(4,1,2,1,2,1,
2,1,4),(-0.360879680748955,-0.349636745663038,-0.338393810577121,-0.327150875491204,
-0.315907940405287,-0.304643036099655,-0.293378131794023,-0.282113227488391,
-0.270848323182758),.UNSPECIFIED.);
#21=B_SPLINE_SURFACE_WITH_KNOTS('',3,3,((#199,#200,#201,#202,#203,#204,
#205,#206,#207,#208,#209,#210,#211,#212),(#213,#214,#215,#216,#217,#218,
#219,#220,#221,#222,#223,#224,#225,#226),(#227,#228,#229,#230,#231,#232,
#233,#234,#235,#236,#237,#238,#239,#240),(#241,#242,#243,#244,#245,#246,
#247,#248,#249,#250,#251,#252,#253,#254),(#255,#256,#257,#258,#259,#260,
#261,#262,#263,#264,#265,#266,#267,#268),(#269,#270,#271,#272,#273,#274,
#275,#276,#277,#278,#279,#280,#281,#282),(#283,#284,#285,#286,#287,#288,
#289,#290,#291,#292,#293,#294,#295,#296),(#297,#298,#299,#300,#301,#302,
#303,#304,#305,#306,#307,#308,#309,#310),(#311,#312,#313,#314,#315,#316,
#317,#318,#319,#320,#321,#322,#323,#324),(#325,#326,#327,#328,#329,#330,
#331,#332,#333,#334,#335,#336,#337,#338)),.UNSPECIFIED.,.T.,.F.,.F.,(4,
1,1,1,1,1,1,4),(4,1,2,1,2,1,2,1,4),(-3.14159265358979,-2.24399475256414,
-1.34639685153848,-0.448798950512828,0.448798950512828,1.34639685153848,
2.24399475256414,3.14159265358979),(-0.360879680748955,-0.349636745663038,
-0.338393810577121,-0.327150875491204,-0.315907940405287,-0.304643036099655,
-0.293378131794023,-0.282113227488391,-0.270848323182758),.UNSPECIFIED.);
#22=FACE_OUTER_BOUND('',#29,.T.);
#23=FACE_OUTER_BOUND('',#30,.T.);
#24=FACE_OUTER_BOUND('',#31,.T.);
#25=FACE_OUTER_BOUND('',#32,.T.);
#26=FACE_OUTER_BOUND('',#33,.T.);
#27=FACE_OUTER_BOUND('',#34,.T.);
#28=FACE_OUTER_BOUND('',#35,.T.);
#29=EDGE_LOOP('',(#68,#69,#70,#71));
#30=EDGE_LOOP('',(#72,#73,#74,#75,#76));
#31=EDGE_LOOP('',(#77,#78,#79,#80,#81,#82));
#32=EDGE_LOOP('',(#83,#84,#85,#86,#87));
#33=EDGE_LOOP('',(#88,#89,#90,#91));
#34=EDGE_LOOP('',(#92));
#35=EDGE_LOOP('',(#93));
#36=CIRCLE('',#127,0.02325);
#37=CIRCLE('',#128,0.26375);
#38=CIRCLE('',#129,0.02325);
#39=CIRCLE('',#131,0.000250000000000079);
#40=CIRCLE('',#132,0.02325);
#41=CIRCLE('',#133,0.02325);
#42=CIRCLE('',#135,0.21675);
#43=CIRCLE('',#136,0.02325);
#44=CIRCLE('',#137,0.02325);
#45=CIRCLE('',#138,0.02325);
#46=CIRCLE('',#140,0.02325);
#47=VERTEX_POINT('',#182);
#48=VERTEX_POINT('',#184);
#49=VERTEX_POINT('',#188);
#50=VERTEX_POINT('',#190);
#51=VERTEX_POINT('',#194);
#52=VERTEX_POINT('',#196);
#53=VERTEX_POINT('',#339);
#54=VERTEX_POINT('',#356);
#55=EDGE_CURVE('',#47,#47,#36,.T.);
#56=EDGE_CURVE('',#47,#48,#37,.T.);
#57=EDGE_CURVE('',#48,#48,#38,.T.);
#58=EDGE_CURVE('',#48,#49,#39,.T.);
#59=EDGE_CURVE('',#50,#49,#40,.T.);
#60=EDGE_CURVE('',#49,#50,#41,.T.);
#61=EDGE_CURVE('',#50,#51,#42,.T.);
#62=EDGE_CURVE('',#52,#51,#43,.T.);
#63=EDGE_CURVE('',#51,#52,#44,.T.);
#64=EDGE_CURVE('',#53,#52,#20,.T.);
#65=EDGE_CURVE('',#53,#53,#45,.T.);
#66=EDGE_CURVE('',#53,#54,#17,.T.);
#67=EDGE_CURVE('',#54,#54,#46,.T.);
#68=ORIENTED_EDGE('',*,*,#55,.T.);
#69=ORIENTED_EDGE('',*,*,#56,.T.);
#70=ORIENTED_EDGE('',*,*,#57,.F.);
#71=ORIENTED_EDGE('',*,*,#56,.F.);
#72=ORIENTED_EDGE('',*,*,#57,.T.);
#73=ORIENTED_EDGE('',*,*,#58,.T.);
#74=ORIENTED_EDGE('',*,*,#59,.F.);
#75=ORIENTED_EDGE('',*,*,#60,.F.);
#76=ORIENTED_EDGE('',*,*,#58,.F.);
#77=ORIENTED_EDGE('',*,*,#59,.T.);
#78=ORIENTED_EDGE('',*,*,#60,.T.);
#79=ORIENTED_EDGE('',*,*,#61,.T.);
#80=ORIENTED_EDGE('',*,*,#62,.F.);
#81=ORIENTED_EDGE('',*,*,#63,.F.);
#82=ORIENTED_EDGE('',*,*,#61,.F.);
#83=ORIENTED_EDGE('',*,*,#62,.T.);
#84=ORIENTED_EDGE('',*,*,#63,.T.);
#85=ORIENTED_EDGE('',*,*,#64,.F.);
#86=ORIENTED_EDGE('',*,*,#65,.F.);
#87=ORIENTED_EDGE('',*,*,#64,.T.);
#88=ORIENTED_EDGE('',*,*,#65,.T.);
#89=ORIENTED_EDGE('',*,*,#66,.T.);
#90=ORIENTED_EDGE('',*,*,#67,.F.);
#91=ORIENTED_EDGE('',*,*,#66,.F.);
#92=ORIENTED_EDGE('',*,*,#55,.F.);
#93=ORIENTED_EDGE('',*,*,#67,.T.);
#94=TOROIDAL_SURFACE('',#126,0.287,0.02325);
#95=TOROIDAL_SURFACE('',#130,0.0235000000000001,0.02325);
#96=TOROIDAL_SURFACE('',#134,0.24,0.02325);
#97=ADVANCED_FACE('',(#22),#94,.T.);
#98=ADVANCED_FACE('',(#23),#95,.T.);
#99=ADVANCED_FACE('',(#24),#96,.T.);
#100=ADVANCED_FACE('',(#25),#21,.T.);
#101=ADVANCED_FACE('',(#26),#19,.T.);
#102=ADVANCED_FACE('',(#27),#15,.F.);
#103=ADVANCED_FACE('',(#28),#16,.T.);
#104=CLOSED_SHELL('',(#97,#98,#99,#100,#101,#102,#103));
#105=DERIVED_UNIT_ELEMENT(#107,1.);
#106=DERIVED_UNIT_ELEMENT(#369,-3.);
#107=(
CONVERSION_BASED_UNIT('gram',#109)
MASS_UNIT()
NAMED_UNIT(#366)
);
#108=(
MASS_UNIT()
NAMED_UNIT(*)
SI_UNIT(.KILO.,.GRAM.)
);
#109=MASS_MEASURE_WITH_UNIT(MASS_MEASURE(0.001),#108);
#110=DERIVED_UNIT((#105,#106));
#111=MEASURE_REPRESENTATION_ITEM('density measure',
POSITIVE_RATIO_MEASURE(7.85),#110);
#112=PROPERTY_DEFINITION_REPRESENTATION(#117,#114);
#113=PROPERTY_DEFINITION_REPRESENTATION(#118,#115);
#114=REPRESENTATION('material name',(#116),#363);
#115=REPRESENTATION('density',(#111),#363);
#116=DESCRIPTIVE_REPRESENTATION_ITEM('SEE ABOVE','SEE ABOVE');
#117=PROPERTY_DEFINITION('material property','material name',#377);
#118=PROPERTY_DEFINITION('material property','density of part',#377);
#119=DATE_TIME_ROLE('creation_date');
#120=APPLIED_DATE_AND_TIME_ASSIGNMENT(#121,#119,(#377));
#121=DATE_AND_TIME(#122,#123);
#122=CALENDAR_DATE(2012,2,8);
#123=LOCAL_TIME(0,0,0.,#124);
#124=COORDINATED_UNIVERSAL_TIME_OFFSET(0,0,.BEHIND.);
#125=AXIS2_PLACEMENT_3D('',#180,#143,#144);
#126=AXIS2_PLACEMENT_3D('',#181,#145,#146);
#127=AXIS2_PLACEMENT_3D('',#183,#147,#148);
#128=AXIS2_PLACEMENT_3D('',#185,#149,#150);
#129=AXIS2_PLACEMENT_3D('',#186,#151,#152);
#130=AXIS2_PLACEMENT_3D('',#187,#153,#154);
#131=AXIS2_PLACEMENT_3D('',#189,#155,#156);
#132=AXIS2_PLACEMENT_3D('',#191,#157,#158);
#133=AXIS2_PLACEMENT_3D('',#192,#159,#160);
#134=AXIS2_PLACEMENT_3D('',#193,#161,#162);
#135=AXIS2_PLACEMENT_3D('',#195,#163,#164);
#136=AXIS2_PLACEMENT_3D('',#197,#165,#166);
#137=AXIS2_PLACEMENT_3D('',#198,#167,#168);
#138=AXIS2_PLACEMENT_3D('',#354,#169,#170);
#139=AXIS2_PLACEMENT_3D('',#355,#171,#172);
#140=AXIS2_PLACEMENT_3D('',#358,#174,#175);
#141=AXIS2_PLACEMENT_3D('',#359,#176,#177);
#142=AXIS2_PLACEMENT_3D('',#360,#178,#179);
#143=DIRECTION('axis',(0.,0.,1.));
#144=DIRECTION('refdir',(1.,0.,0.));
#145=DIRECTION('center_axis',(0.,0.,1.));
#146=DIRECTION('ref_axis',(1.,0.,0.));
#147=DIRECTION('center_axis',(-0.190681433528536,-0.981651970357877,-1.55466205225942E-15));
#148=DIRECTION('ref_axis',(-0.853750950609654,0.165837241766296,-0.493565926271718));
#149=DIRECTION('center_axis',(0.,0.,-1.));
#150=DIRECTION('ref_axis',(1.,0.,0.));
#151=DIRECTION('center_axis',(-0.465232623728742,-0.885188457797813,-1.55466205225942E-15));
#152=DIRECTION('ref_axis',(-0.769855824807302,0.404616714229417,-0.493565926271718));
#153=DIRECTION('center_axis',(0.,0.,1.));
#154=DIRECTION('ref_axis',(-0.465232623728501,-0.88518845779794,0.));
#155=DIRECTION('center_axis',(0.,0.,-1.));
#156=DIRECTION('ref_axis',(-0.465232623728419,-0.885188457797983,0.));
#157=DIRECTION('center_axis',(0.465232623728743,0.885188457797813,-1.55466205225942E-15));
#158=DIRECTION('ref_axis',(0.769855824807301,-0.404616714229418,-0.493565926271718));
#159=DIRECTION('center_axis',(0.465232623728743,0.885188457797813,-1.55466205225942E-15));
#160=DIRECTION('ref_axis',(0.769855824807301,-0.404616714229418,-0.493565926271718));
#161=DIRECTION('center_axis',(0.,0.,-1.));
#162=DIRECTION('ref_axis',(0.00840984849284541,0.999964636598879,0.));
#163=DIRECTION('center_axis',(0.,0.,1.));
#164=DIRECTION('ref_axis',(0.00840984849284541,0.999964636598879,0.));
#165=DIRECTION('center_axis',(0.450278740937008,-0.892888041951612,-1.55466205225942E-15));
#166=DIRECTION('ref_axis',(-0.776552217713444,-0.391611196964377,-0.493565926271718));
#167=DIRECTION('center_axis',(0.450278740937008,-0.892888041951612,-1.55466205225942E-15));
#168=DIRECTION('ref_axis',(-0.776552217713444,-0.391611196964377,-0.493565926271718));
#169=DIRECTION('center_axis',(0.,0.,-1.));
#170=DIRECTION('ref_axis',(-1.,0.,0.));
#171=DIRECTION('center_axis',(0.,0.,1.));
#172=DIRECTION('ref_axis',(-1.,0.,0.));
#173=DIRECTION('',(0.,0.,-1.));
#174=DIRECTION('center_axis',(0.,0.,-1.));
#175=DIRECTION('ref_axis',(-1.,0.,0.));
#176=DIRECTION('center_axis',(-0.190681433528538,-0.981651970357877,0.));
#177=DIRECTION('ref_axis',(0.,0.,-1.));
#178=DIRECTION('center_axis',(0.,0.,-1.));
#179=DIRECTION('ref_axis',(-1.,0.,0.));
#180=CARTESIAN_POINT('',(0.,0.,0.));
#181=CARTESIAN_POINT('Origin',(0.,0.,6.82961998416066E-18));
#182=CARTESIAN_POINT('',(0.25891070718189,-0.050292228093152,3.98231617614306E-18));
#183=CARTESIAN_POINT('Origin',(0.281734115492711,-0.0547255714226905,6.82961998416066E-18));
#184=CARTESIAN_POINT('',(0.233468455744173,-0.122705104508456,3.98231617614306E-18));
#185=CARTESIAN_POINT('Origin',(0.,0.,3.98231617614306E-18));
#186=CARTESIAN_POINT('Origin',(0.254049087387972,-0.133521763010149,6.82961998416066E-18));
#187=CARTESIAN_POINT('Origin',(0.233247158629724,-0.122588796352524,6.82961998416066E-18));
#188=CARTESIAN_POINT('',(0.233025861515274,-0.122472488196592,3.98231617614306E-18));
#189=CARTESIAN_POINT('Origin',(0.233247158629724,-0.122588796352524,3.98231617614306E-18));
#190=CARTESIAN_POINT('',(0.191864598227676,-0.100839171193205,9.67692379217825E-18));
#191=CARTESIAN_POINT('Origin',(0.212445229871475,-0.111655829694898,6.82961998416066E-18));
#192=CARTESIAN_POINT('Origin',(0.212445229871475,-0.111655829694898,6.82961998416066E-18));
#193=CARTESIAN_POINT('Origin',(0.,0.,6.82961998416066E-18));
#194=CARTESIAN_POINT('',(-0.193533483093012,-0.0975979170980961,9.67692379217825E-18));
#195=CARTESIAN_POINT('Origin',(0.,0.,9.67692379217825E-18));
#196=CARTESIAN_POINT('',(-0.196238291006549,-0.0989619374954598,0.0114754077858175));
#197=CARTESIAN_POINT('Origin',(-0.214293130068387,-0.108066897824882,6.82961998416066E-18));
#198=CARTESIAN_POINT('Origin',(-0.214293130068387,-0.108066897824882,6.82961998416066E-18));
#199=CARTESIAN_POINT('Ctrl Pts',(-0.179431819165666,-0.128530464014163,
-0.0235));
#200=CARTESIAN_POINT('Ctrl Pts',(-0.179431819165666,-0.128530464014163,
-0.0212427870139158));
#201=CARTESIAN_POINT('Ctrl Pts',(-0.179664672903629,-0.128177836770425,
-0.0165717023366384));
#202=CARTESIAN_POINT('Ctrl Pts',(-0.180400607006621,-0.127000570667939,
-0.0119810138828607));
#203=CARTESIAN_POINT('Ctrl Pts',(-0.181359620920531,-0.125455666183628,
-0.00760724236779454));
#204=CARTESIAN_POINT('Ctrl Pts',(-0.182543603475983,-0.12354408559666,-0.00343851211642443));
#205=CARTESIAN_POINT('Ctrl Pts',(-0.184044080829919,-0.121065829121515,
5.08432794117403E-5));
#206=CARTESIAN_POINT('Ctrl Pts',(-0.185611415984623,-0.118430809771756,
0.00311656126634659));
#207=CARTESIAN_POINT('Ctrl Pts',(-0.1873539100037,-0.115457483687144,0.00596600641159099));
#208=CARTESIAN_POINT('Ctrl Pts',(-0.18931422461541,-0.111986628016951,0.00810151578595778));
#209=CARTESIAN_POINT('Ctrl Pts',(-0.191310637667279,-0.108377819794473,
0.00980965621174355));
#210=CARTESIAN_POINT('Ctrl Pts',(-0.193346938596146,-0.104619716197758,
0.0110916964258243));
#211=CARTESIAN_POINT('Ctrl Pts',(-0.195306776181886,-0.100809100979376,
0.0114754077858174));
#212=CARTESIAN_POINT('Ctrl Pts',(-0.196238291006549,-0.0989619374954598,
0.0114754077858174));
#213=CARTESIAN_POINT('Ctrl Pts',(-0.179431819165666,-0.121574080281214,
-0.0235));
#214=CARTESIAN_POINT('Ctrl Pts',(-0.179431719954564,-0.121573962088249,
-0.0216116114046452));
#215=CARTESIAN_POINT('Ctrl Pts',(-0.179622755170972,-0.121280923563831,
-0.0177029686522446));
#216=CARTESIAN_POINT('Ctrl Pts',(-0.180239968199017,-0.120296390476977,
-0.0138725382430753));
#217=CARTESIAN_POINT('Ctrl Pts',(-0.181040557055149,-0.119009376044492,
-0.0102326098590594));
#218=CARTESIAN_POINT('Ctrl Pts',(-0.182024225312844,-0.117421193586799,
-0.00677251807052205));
#219=CARTESIAN_POINT('Ctrl Pts',(-0.183260897822616,-0.115377235916198,
-0.0038947457747493));
#220=CARTESIAN_POINT('Ctrl Pts',(-0.184548971229772,-0.113211479981287,
-0.00137460099376587));
#221=CARTESIAN_POINT('Ctrl Pts',(-0.185977246564696,-0.11077506787814,0.000957058068874792));
#222=CARTESIAN_POINT('Ctrl Pts',(-0.187571928606348,-0.107951953775984,
0.00269272405053782));
#223=CARTESIAN_POINT('Ctrl Pts',(-0.189190154664969,-0.105024467021521,
0.00408000733704136));
#224=CARTESIAN_POINT('Ctrl Pts',(-0.190836471008395,-0.101983351973241,
0.00511905250923075));
#225=CARTESIAN_POINT('Ctrl Pts',(-0.192420150305144,-0.0989077042594149,
0.0054252391903646));
#226=CARTESIAN_POINT('Ctrl Pts',(-0.193172618862393,-0.0974159351655604,
0.00542538251805839));
#227=CARTESIAN_POINT('Ctrl Pts',(-0.186076535386164,-0.107724992568075,
-0.0235));
#228=CARTESIAN_POINT('Ctrl Pts',(-0.186076532980373,-0.107725153027233,
-0.0225694739788144));
#229=CARTESIAN_POINT('Ctrl Pts',(-0.186160850810738,-0.10758304181897,-0.0206413889467798));
#230=CARTESIAN_POINT('Ctrl Pts',(-0.186469966291782,-0.10709932044556,-0.0187733493735146));
#231=CARTESIAN_POINT('Ctrl Pts',(-0.186861747647804,-0.106476299419461,
-0.0170175295283918));
#232=CARTESIAN_POINT('Ctrl Pts',(-0.187333217705074,-0.105715987118613,
-0.0153659851566121));
#233=CARTESIAN_POINT('Ctrl Pts',(-0.187905638825613,-0.104765081872962,
-0.0140290676581562));
#234=CARTESIAN_POINT('Ctrl Pts',(-0.188494625338661,-0.103773911064767,
-0.0128752530044816));
#235=CARTESIAN_POINT('Ctrl Pts',(-0.189141359482623,-0.102674005808731,
-0.0118275137316871));
#236=CARTESIAN_POINT('Ctrl Pts',(-0.189838961806422,-0.101439218537102,
-0.0110718774506088));
#237=CARTESIAN_POINT('Ctrl Pts',(-0.190534920411753,-0.100174516652619,
-0.0104692909042964));
#238=CARTESIAN_POINT('Ctrl Pts',(-0.191234040403577,-0.0988740249583839,
-0.0100215309608383));
#239=CARTESIAN_POINT('Ctrl Pts',(-0.191910015362193,-0.0975735596318434,
-0.00989877808493067));
#240=CARTESIAN_POINT('Ctrl Pts',(-0.192229307301771,-0.0969402281095002,
-0.00989889071865966));
#241=CARTESIAN_POINT('Ctrl Pts',(-0.20860140816192,-0.10258744389093,-0.0235));
#242=CARTESIAN_POINT('Ctrl Pts',(-0.208601381215942,-0.102587399990963,
-0.0235991417690982));
#243=CARTESIAN_POINT('Ctrl Pts',(-0.208576310659163,-0.102599629789485,
-0.0238031303257305));
#244=CARTESIAN_POINT('Ctrl Pts',(-0.208552910831894,-0.102655956640422,
-0.0240189263530817));
#245=CARTESIAN_POINT('Ctrl Pts',(-0.208513277081535,-0.102734664364684,
-0.0242380368057075));
#246=CARTESIAN_POINT('Ctrl Pts',(-0.208452239697044,-0.102834679809331,
-0.0244596018289429));
#247=CARTESIAN_POINT('Ctrl Pts',(-0.208357290300844,-0.102982203938378,
-0.024670536066814));
#248=CARTESIAN_POINT('Ctrl Pts',(-0.208255828920469,-0.103151092750665,
-0.0248670336455339));
#249=CARTESIAN_POINT('Ctrl Pts',(-0.208141224300554,-0.103353405387637,
-0.0250633058345851));
#250=CARTESIAN_POINT('Ctrl Pts',(-0.207995546030936,-0.103612908446014,
-0.025224519074469));
#251=CARTESIAN_POINT('Ctrl Pts',(-0.207836903583809,-0.103887317483761,
-0.0253533488317052));
#252=CARTESIAN_POINT('Ctrl Pts',(-0.207669612659086,-0.104178447396561,
-0.0254509742464944));
#253=CARTESIAN_POINT('Ctrl Pts',(-0.207527397753704,-0.10447960343345,-0.0254846168974046));
#254=CARTESIAN_POINT('Ctrl Pts',(-0.207456934062004,-0.104619440152781,
-0.0254845695816203));
#255=CARTESIAN_POINT('Ctrl Pts',(-0.226676102217818,-0.116981487845334,
-0.0235));
#256=CARTESIAN_POINT('Ctrl Pts',(-0.226676147509511,-0.116981362857879,
-0.0234435868595742));
#257=CARTESIAN_POINT('Ctrl Pts',(-0.226674791160504,-0.116958918839872,
-0.0233289896444199));
#258=CARTESIAN_POINT('Ctrl Pts',(-0.226700325197332,-0.11693570575646,-0.0231934110378993));
#259=CARTESIAN_POINT('Ctrl Pts',(-0.226736568330502,-0.116891131043929,
-0.023043734754307));
#260=CARTESIAN_POINT('Ctrl Pts',(-0.226781396153293,-0.116820340555941,
-0.0228822460423959));
#261=CARTESIAN_POINT('Ctrl Pts',(-0.226852959405649,-0.116693743751543,
-0.0227073865919402));
#262=CARTESIAN_POINT('Ctrl Pts',(-0.226940943958781,-0.116544224623332,
-0.0225348169092163));
#263=CARTESIAN_POINT('Ctrl Pts',(-0.227051736807368,-0.116362085793918,
-0.0223516223370462));
#264=CARTESIAN_POINT('Ctrl Pts',(-0.227202655401137,-0.116096959487746,
-0.0221839207556054));
#265=CARTESIAN_POINT('Ctrl Pts',(-0.22736472467978,-0.115792468928065,-0.0220455358596557));
#266=CARTESIAN_POINT('Ctrl Pts',(-0.227540355945623,-0.11545232569361,-0.0219342211911593));
#267=CARTESIAN_POINT('Ctrl Pts',(-0.227742568874922,-0.115082510521405,
-0.0218870637435126));
#268=CARTESIAN_POINT('Ctrl Pts',(-0.227836320225743,-0.114896657353294,
-0.0218870019619116));
#269=CARTESIAN_POINT('Ctrl Pts',(-0.226647608793507,-0.140068185922055,
-0.0235));
#270=CARTESIAN_POINT('Ctrl Pts',(-0.226647583591696,-0.140068182004479,
-0.0222186316998492));
#271=CARTESIAN_POINT('Ctrl Pts',(-0.226785502235543,-0.139847890257042,
-0.0195716013786971));
#272=CARTESIAN_POINT('Ctrl Pts',(-0.227204853962929,-0.139184821027721,
-0.0169113083984007));
#273=CARTESIAN_POINT('Ctrl Pts',(-0.22776800023436,-0.138283734043235,-0.0143241268677257));
#274=CARTESIAN_POINT('Ctrl Pts',(-0.228478022314337,-0.137138326738685,
-0.011809270532795));
#275=CARTESIAN_POINT('Ctrl Pts',(-0.22942541644332,-0.135570229951434,-0.00960357305942451));
#276=CARTESIAN_POINT('Ctrl Pts',(-0.230441069905306,-0.133861981634221,
-0.00761837629508475));
#277=CARTESIAN_POINT('Ctrl Pts',(-0.231595252316456,-0.131896337826418,
-0.00571664376182108));
#278=CARTESIAN_POINT('Ctrl Pts',(-0.232960396527482,-0.129481068987407,
-0.00422063494487675));
#279=CARTESIAN_POINT('Ctrl Pts',(-0.234377936616503,-0.126913474262542,
-0.00301654348918012));
#280=CARTESIAN_POINT('Ctrl Pts',(-0.235848753184642,-0.124192522465194,
-0.00209878102544946));
#281=CARTESIAN_POINT('Ctrl Pts',(-0.237299518148774,-0.121382471184485,
-0.00179426150894807));
#282=CARTESIAN_POINT('Ctrl Pts',(-0.237988480969559,-0.120016338592976,
-0.00179424365956128));
#283=CARTESIAN_POINT('Ctrl Pts',(-0.208613676372097,-0.154501035043154,
-0.0235));
#284=CARTESIAN_POINT('Ctrl Pts',(-0.208613768917291,-0.154501049199583,
-0.0208469348325887));
#285=CARTESIAN_POINT('Ctrl Pts',(-0.208901376792518,-0.154068968945959,
-0.0153620374890501));
#286=CARTESIAN_POINT('Ctrl Pts',(-0.209762900043035,-0.152687654956179,
-0.00990560889109439));
#287=CARTESIAN_POINT('Ctrl Pts',(-0.210906674622064,-0.150842366594727,
-0.00464837621737013));
#288=CARTESIAN_POINT('Ctrl Pts',(-0.212340201506452,-0.148528086415364,
0.000417117559335367));
#289=CARTESIAN_POINT('Ctrl Pts',(-0.214213103747033,-0.145436716459681,
0.00476937806784096));
#290=CARTESIAN_POINT('Ctrl Pts',(-0.216195940666461,-0.142103394239334,
0.00864522637430809));
#291=CARTESIAN_POINT('Ctrl Pts',(-0.218425725197551,-0.138298531664253,
0.0123106226317789));
#292=CARTESIAN_POINT('Ctrl Pts',(-0.221008450375676,-0.133726351116773,
0.0151341276700131));
#293=CARTESIAN_POINT('Ctrl Pts',(-0.223671115316579,-0.128915437020038,
0.0173997385288299));
#294=CARTESIAN_POINT('Ctrl Pts',(-0.226414192525116,-0.123856619272815,
0.0191144866244707));
#295=CARTESIAN_POINT('Ctrl Pts',(-0.229077802807831,-0.118674135219886,
0.0196591261954014));
#296=CARTESIAN_POINT('Ctrl Pts',(-0.230344734566318,-0.11616163750529,0.0196590608127088));
#297=CARTESIAN_POINT('Ctrl Pts',(-0.186081100809399,-0.149318312657575,
-0.0235));
#298=CARTESIAN_POINT('Ctrl Pts',(-0.186081013283316,-0.149318330025335,
-0.0203641998649133));
#299=CARTESIAN_POINT('Ctrl Pts',(-0.18641605048264,-0.148820274814211,-0.0138778080030636));
#300=CARTESIAN_POINT('Ctrl Pts',(-0.187433974811005,-0.14718474973074,-0.00746496624080441));
#301=CARTESIAN_POINT('Ctrl Pts',(-0.188774336706103,-0.14502014871286,-0.00132099639746535));
#302=CARTESIAN_POINT('Ctrl Pts',(-0.190443308713109,-0.142325045055233,
0.00456674375934574));
#303=CARTESIAN_POINT('Ctrl Pts',(-0.192592336149827,-0.138779395517573,
0.0095598647751779));
#304=CARTESIAN_POINT('Ctrl Pts',(-0.194851514351096,-0.134981879770771,
0.0139770623926142));
#305=CARTESIAN_POINT('Ctrl Pts',(-0.197376642049069,-0.130670975648894,
0.018118469218041));
#306=CARTESIAN_POINT('Ctrl Pts',(-0.200260408786055,-0.125565237266706,
0.0212659071233518));
#307=CARTESIAN_POINT('Ctrl Pts',(-0.203216754570733,-0.120225565652041,
0.0237871261657731));
#308=CARTESIAN_POINT('Ctrl Pts',(-0.206247895953835,-0.114638471218084,
0.0256868224147681));
#309=CARTESIAN_POINT('Ctrl Pts',(-0.209171757918938,-0.108944415100076,
0.0262728752496002));
#310=CARTESIAN_POINT('Ctrl Pts',(-0.210562991881557,-0.106185808766263,
0.0262729152213108));
#311=CARTESIAN_POINT('Ctrl Pts',(-0.179431819165666,-0.135486847747112,
-0.0235));
#312=CARTESIAN_POINT('Ctrl Pts',(-0.179431918376769,-0.135486965940077,
-0.0208739626231865));
#313=CARTESIAN_POINT('Ctrl Pts',(-0.179706590636286,-0.13507474997702,-0.0154404360210322));
#314=CARTESIAN_POINT('Ctrl Pts',(-0.180561245814225,-0.133704750858901,
-0.0100894895226461));
#315=CARTESIAN_POINT('Ctrl Pts',(-0.181678684785913,-0.131901956322765,
-0.00498187487652971));
#316=CARTESIAN_POINT('Ctrl Pts',(-0.183062981639122,-0.129666977606522,
-0.000104506162326805));
#317=CARTESIAN_POINT('Ctrl Pts',(-0.184827263837222,-0.126754422326831,
0.00399643233357278));
#318=CARTESIAN_POINT('Ctrl Pts',(-0.186673860739474,-0.123650139562225,
0.00760772352645904));
#319=CARTESIAN_POINT('Ctrl Pts',(-0.188730573442704,-0.120139899496149,
0.0109749547543072));
#320=CARTESIAN_POINT('Ctrl Pts',(-0.191056520624472,-0.116021302257918,
0.0135103075213777));
#321=CARTESIAN_POINT('Ctrl Pts',(-0.193431120669589,-0.111731172567425,
0.0155393050864457));
#322=CARTESIAN_POINT('Ctrl Pts',(-0.195857406183897,-0.107256080422275,
0.0170643403424179));
#323=CARTESIAN_POINT('Ctrl Pts',(-0.198193402058627,-0.102710497699338,
0.0175255763812702));
#324=CARTESIAN_POINT('Ctrl Pts',(-0.199303963150706,-0.100507939825359,
0.0175254330535765));
#325=CARTESIAN_POINT('Ctrl Pts',(-0.179431819165666,-0.128530464014163,
-0.0235));
#326=CARTESIAN_POINT('Ctrl Pts',(-0.179431819165666,-0.128530464014163,
-0.0212427870139158));
#327=CARTESIAN_POINT('Ctrl Pts',(-0.179664672903629,-0.128177836770425,
-0.0165717023366384));
#328=CARTESIAN_POINT('Ctrl Pts',(-0.180400607006621,-0.127000570667939,
-0.0119810138828607));
#329=CARTESIAN_POINT('Ctrl Pts',(-0.181359620920531,-0.125455666183628,
-0.00760724236779454));
#330=CARTESIAN_POINT('Ctrl Pts',(-0.182543603475983,-0.12354408559666,-0.00343851211642443));
#331=CARTESIAN_POINT('Ctrl Pts',(-0.184044080829919,-0.121065829121515,
5.08432794117403E-5));
#332=CARTESIAN_POINT('Ctrl Pts',(-0.185611415984623,-0.118430809771756,
0.00311656126634659));
#333=CARTESIAN_POINT('Ctrl Pts',(-0.1873539100037,-0.115457483687144,0.00596600641159099));
#334=CARTESIAN_POINT('Ctrl Pts',(-0.18931422461541,-0.111986628016951,0.00810151578595778));
#335=CARTESIAN_POINT('Ctrl Pts',(-0.191310637667279,-0.108377819794473,
0.00980965621174355));
#336=CARTESIAN_POINT('Ctrl Pts',(-0.193346938596146,-0.104619716197758,
0.0110916964258243));
#337=CARTESIAN_POINT('Ctrl Pts',(-0.195306776181886,-0.100809100979376,
0.0114754077858174));
#338=CARTESIAN_POINT('Ctrl Pts',(-0.196238291006549,-0.0989619374954598,
0.0114754077858174));
#339=CARTESIAN_POINT('',(-0.179431819165666,-0.128530464014163,-0.0235));
#340=CARTESIAN_POINT('Ctrl Pts',(-0.179431819165666,-0.128530464014163,
-0.0235));
#341=CARTESIAN_POINT('Ctrl Pts',(-0.179431819165666,-0.128530464014163,
-0.0212427870139158));
#342=CARTESIAN_POINT('Ctrl Pts',(-0.179664672903629,-0.128177836770425,
-0.0165717023366384));
#343=CARTESIAN_POINT('Ctrl Pts',(-0.180400607006621,-0.127000570667939,
-0.0119810138828607));
#344=CARTESIAN_POINT('Ctrl Pts',(-0.181359620920531,-0.125455666183628,
-0.00760724236779454));
#345=CARTESIAN_POINT('Ctrl Pts',(-0.182543603475983,-0.12354408559666,-0.00343851211642443));
#346=CARTESIAN_POINT('Ctrl Pts',(-0.184044080829919,-0.121065829121515,
5.08432794117403E-5));
#347=CARTESIAN_POINT('Ctrl Pts',(-0.185611415984623,-0.118430809771756,
0.00311656126634659));
#348=CARTESIAN_POINT('Ctrl Pts',(-0.1873539100037,-0.115457483687144,0.00596600641159099));
#349=CARTESIAN_POINT('Ctrl Pts',(-0.18931422461541,-0.111986628016951,0.00810151578595778));
#350=CARTESIAN_POINT('Ctrl Pts',(-0.191310637667279,-0.108377819794473,
0.00980965621174355));
#351=CARTESIAN_POINT('Ctrl Pts',(-0.193346938596146,-0.104619716197758,
0.0110916964258243));
#352=CARTESIAN_POINT('Ctrl Pts',(-0.195306776181886,-0.100809100979376,
0.0114754077858174));
#353=CARTESIAN_POINT('Ctrl Pts',(-0.196238291006549,-0.0989619374954598,
0.0114754077858174));
#354=CARTESIAN_POINT('Origin',(-0.202681819165666,-0.128530464014163,-0.0235));
#355=CARTESIAN_POINT('Origin',(-0.202681819165666,-0.128530464014163,-0.5945));
#356=CARTESIAN_POINT('',(-0.179431819165666,-0.128530464014163,-0.5945));
#357=CARTESIAN_POINT('',(-0.179431819165666,-0.128530464014163,-0.5945));
#358=CARTESIAN_POINT('Origin',(-0.202681819165666,-0.128530464014163,-0.5945));
#359=CARTESIAN_POINT('Origin',(0.281734115492711,-0.0547255714226905,0.));
#360=CARTESIAN_POINT('Origin',(-0.202681819165666,-0.128530464014163,-0.5945));
#361=UNCERTAINTY_MEASURE_WITH_UNIT(LENGTH_MEASURE(0.000393700787401575),
#367,'DISTANCE_ACCURACY_VALUE',
'Maximum model space distance between geometric entities at asserted c
onnectivities');
#362=UNCERTAINTY_MEASURE_WITH_UNIT(LENGTH_MEASURE(0.000393700787401575),
#367,'DISTANCE_ACCURACY_VALUE',
'Maximum model space distance between geometric entities at asserted c
onnectivities');
#363=(
GEOMETRIC_REPRESENTATION_CONTEXT(3)
GLOBAL_UNCERTAINTY_ASSIGNED_CONTEXT((#361))
GLOBAL_UNIT_ASSIGNED_CONTEXT((#367,#371,#372))
REPRESENTATION_CONTEXT('','3D')
);
#364=(
GEOMETRIC_REPRESENTATION_CONTEXT(3)
GLOBAL_UNCERTAINTY_ASSIGNED_CONTEXT((#362))
GLOBAL_UNIT_ASSIGNED_CONTEXT((#367,#371,#372))
REPRESENTATION_CONTEXT('','3D')
);
#365=DIMENSIONAL_EXPONENTS(1.,0.,0.,0.,0.,0.,0.);
#366=DIMENSIONAL_EXPONENTS(0.,1.,0.,0.,0.,0.,0.);
#367=(
CONVERSION_BASED_UNIT('inch',#370)
LENGTH_UNIT()
NAMED_UNIT(#365)
);
#368=(
LENGTH_UNIT()
NAMED_UNIT(*)
SI_UNIT(.MILLI.,.METRE.)
);
#369=(
LENGTH_UNIT()
NAMED_UNIT(*)
SI_UNIT(.CENTI.,.METRE.)
);
#370=LENGTH_MEASURE_WITH_UNIT(LENGTH_MEASURE(25.4),#368);
#371=(
NAMED_UNIT(*)
PLANE_ANGLE_UNIT()
SI_UNIT($,.RADIAN.)
);
#372=(
NAMED_UNIT(*)
SI_UNIT($,.STERADIAN.)
SOLID_ANGLE_UNIT()
);
#373=SHAPE_DEFINITION_REPRESENTATION(#374,#375);
#374=PRODUCT_DEFINITION_SHAPE('',$,#377);
#375=SHAPE_REPRESENTATION('',(#125),#363);
#376=PRODUCT_DEFINITION_CONTEXT('part definition',#381,'design');
#377=PRODUCT_DEFINITION('16302-SS','16302-SS',#378,#376);
#378=PRODUCT_DEFINITION_FORMATION('',$,#383);
#379=PRODUCT_RELATED_PRODUCT_CATEGORY('16302-SS','16302-SS',(#383));
#380=APPLICATION_PROTOCOL_DEFINITION('international standard',
'automotive_design',2009,#381);
#381=APPLICATION_CONTEXT(
'Core Data for Automotive Mechanical Design Process');
#382=PRODUCT_CONTEXT('part definition',#381,'mechanical');
#383=PRODUCT('16302-SS','16302-SS',
'SAFETY RETAINING CLIP 30 MM SIZE, FOR 13 MM BALL STUD',(#382));
#384=PRESENTATION_STYLE_ASSIGNMENT((#385));
#385=SURFACE_STYLE_USAGE(.BOTH.,#388);
#386=SURFACE_STYLE_RENDERING_WITH_PROPERTIES($,#392,(#387));
#387=SURFACE_STYLE_TRANSPARENT(0.);
#388=SURFACE_SIDE_STYLE('',(#389,#386));
#389=SURFACE_STYLE_FILL_AREA(#390);
#390=FILL_AREA_STYLE('',(#391));
#391=FILL_AREA_STYLE_COLOUR('',#392);
#392=COLOUR_RGB('',0.87843137254902,0.874509803921569,0.858823529411765);
ENDSEC;
END-ISO-10303-21;
