ISO-10303-21;
HEADER;
/****************************************************************
 * Generated by software with PDElib inside                    *
 * PDElib Version v51a, created Wed 11/30/2011                  *
 * ITI Transcendata (http://www.transcendata.com/)              *
 ****************************************************************/
FILE_DESCRIPTION((''),'2;1');
FILE_NAME('N:\\Website_Ocular\\STEP\\16301.stp','2012-11-16T11:20:39',('fredp'),(''),'Autodesk Inventor 2013','Autodesk Inventor 2013','');
FILE_SCHEMA(('AUTOMOTIVE_DESIGN { 1 0 10303 214 1 1 1 1 }'));
ENDSEC;
DATA;
#5=APPLICATION_CONTEXT('automotive design');
#6=APPLICATION_PROTOCOL_DEFINITION('International Standard','automotive_design',2001,#5);
#7=PRODUCT_CONTEXT('',#5,'mechanical');
#8=PRODUCT('16301','16301',$,(#7));
#9=PRODUCT_RELATED_PRODUCT_CATEGORY('part',$,(#8));
#10=PRODUCT_DEFINITION_FORMATION('',$,#8);
#11=PRODUCT_DEFINITION_CONTEXT('part definition',#5,'design');
#12=PRODUCT_DEFINITION('',$,#10,#11);
#18=(NAMED_UNIT(*)PLANE_ANGLE_UNIT()SI_UNIT($,.RADIAN.));
#19=DIMENSIONAL_EXPONENTS(0.0,0.0,0.0,0.0,0.0,0.0,0.0);
#20=PLANE_ANGLE_MEASURE_WITH_UNIT(PLANE_ANGLE_MEASURE(0.0174532925),#18);
#24=(CONVERSION_BASED_UNIT('DEGREE',#20)NAMED_UNIT(#19)PLANE_ANGLE_UNIT());
#28=(NAMED_UNIT(*)SI_UNIT($,.STERADIAN.)SOLID_ANGLE_UNIT());
#32=(LENGTH_UNIT()NAMED_UNIT(*)SI_UNIT(.CENTI.,.METRE.));
#33=DIMENSIONAL_EXPONENTS(1.0,0.0,0.0,0.0,0.0,0.0,0.0);
#34=LENGTH_MEASURE_WITH_UNIT(LENGTH_MEASURE(2.54),#32);
#38=(CONVERSION_BASED_UNIT('INCH',#34)LENGTH_UNIT()NAMED_UNIT(#33));
#40=UNCERTAINTY_MEASURE_WITH_UNIT(LENGTH_MEASURE(0.000393700787402),#38,'DISTANCE_ACCURACY_VALUE','');
#42=(GEOMETRIC_REPRESENTATION_CONTEXT(3)GLOBAL_UNCERTAINTY_ASSIGNED_CONTEXT((#40))GLOBAL_UNIT_ASSIGNED_CONTEXT((#24,#28,#38))REPRESENTATION_CONTEXT('None','None'));
#43=AXIS2_PLACEMENT_3D('',#44,#45,#46);
#44=CARTESIAN_POINT('',(0.0,0.0,0.0));
#45=DIRECTION('',(0.0,0.0,1.0));
#46=DIRECTION('',(1.0,0.0,0.0));
#47=SHAPE_REPRESENTATION('',(#43),#42);
#48=PRODUCT_DEFINITION_SHAPE('','',#12);
#49=SHAPE_DEFINITION_REPRESENTATION(#48,#47);
#55=(NAMED_UNIT(*)PLANE_ANGLE_UNIT()SI_UNIT($,.RADIAN.));
#56=DIMENSIONAL_EXPONENTS(0.0,0.0,0.0,0.0,0.0,0.0,0.0);
#57=PLANE_ANGLE_MEASURE_WITH_UNIT(PLANE_ANGLE_MEASURE(0.0174532925),#55);
#61=(CONVERSION_BASED_UNIT('DEGREE',#57)NAMED_UNIT(#56)PLANE_ANGLE_UNIT());
#65=(NAMED_UNIT(*)SI_UNIT($,.STERADIAN.)SOLID_ANGLE_UNIT());
#69=(LENGTH_UNIT()NAMED_UNIT(*)SI_UNIT(.MILLI.,.METRE.));
#71=UNCERTAINTY_MEASURE_WITH_UNIT(LENGTH_MEASURE(0.000001),#69,'DISTANCE_ACCURACY_VALUE','');
#73=(GEOMETRIC_REPRESENTATION_CONTEXT(3)GLOBAL_UNCERTAINTY_ASSIGNED_CONTEXT((#71))GLOBAL_UNIT_ASSIGNED_CONTEXT((#61,#65,#69))REPRESENTATION_CONTEXT('','3D'));
#74=CARTESIAN_POINT('',(0.605,0.0,0.0));
#75=DIRECTION('',(-1.0,0.0,0.0));
#76=DIRECTION('',(0.0,-1.0,0.0));
#77=AXIS2_PLACEMENT_3D('',#74,#75,#76);
#78=CONICAL_SURFACE('',#77,0.1425,44.999999999999957);
#79=CARTESIAN_POINT('',(0.59,0.1575,1.928819E-017));
#80=VERTEX_POINT('',#79);
#81=CARTESIAN_POINT('',(0.59,0.0,0.0));
#82=DIRECTION('',(1.0,0.0,0.0));
#83=DIRECTION('',(0.0,-1.0,0.0));
#84=AXIS2_PLACEMENT_3D('',#81,#82,#83);
#85=CIRCLE('',#84,0.1575);
#86=EDGE_CURVE('',#80,#80,#85,.T.);
#87=ORIENTED_EDGE('',*,*,#86,.T.);
#88=EDGE_LOOP('',(#87));
#89=FACE_OUTER_BOUND('',#88,.T.);
#90=CARTESIAN_POINT('',(0.62,0.1275,-1.561425E-017));
#91=VERTEX_POINT('',#90);
#92=CARTESIAN_POINT('',(0.62,0.0,0.0));
#93=DIRECTION('',(-1.0,0.0,0.0));
#94=DIRECTION('',(0.0,-1.0,0.0));
#95=AXIS2_PLACEMENT_3D('',#92,#93,#94);
#96=CIRCLE('',#95,0.1275);
#97=EDGE_CURVE('',#91,#91,#96,.T.);
#98=ORIENTED_EDGE('',*,*,#97,.T.);
#99=EDGE_LOOP('',(#98));
#100=FACE_BOUND('',#99,.T.);
#101=ADVANCED_FACE('',(#89,#100),#78,.T.);
#102=CARTESIAN_POINT('',(0.31,0.0,0.0));
#103=DIRECTION('',(1.0,0.0,0.0));
#104=DIRECTION('',(0.0,1.0,0.0));
#105=AXIS2_PLACEMENT_3D('',#102,#103,#104);
#106=CYLINDRICAL_SURFACE('',#105,0.1575);
#107=CARTESIAN_POINT('',(0.15,-0.1575,1.928819E-017));
#108=VERTEX_POINT('',#107);
#109=CARTESIAN_POINT('',(0.15,0.0,0.0));
#110=DIRECTION('',(-1.0,0.0,0.0));
#111=DIRECTION('',(0.0,1.0,0.0));
#112=AXIS2_PLACEMENT_3D('',#109,#110,#111);
#113=CIRCLE('',#112,0.1575);
#114=EDGE_CURVE('',#108,#108,#113,.T.);
#115=ORIENTED_EDGE('',*,*,#114,.F.);
#116=EDGE_LOOP('',(#115));
#117=FACE_OUTER_BOUND('',#116,.T.);
#118=ORIENTED_EDGE('',*,*,#86,.F.);
#119=EDGE_LOOP('',(#118));
#120=FACE_BOUND('',#119,.T.);
#121=ADVANCED_FACE('',(#117,#120),#106,.T.);
#122=CARTESIAN_POINT('',(0.62,0.07875,0.0));
#123=DIRECTION('',(1.0,0.0,0.0));
#124=DIRECTION('',(0.0,0.0,-1.0));
#125=AXIS2_PLACEMENT_3D('',#122,#123,#124);
#126=PLANE('',#125);
#127=ORIENTED_EDGE('',*,*,#97,.F.);
#128=EDGE_LOOP('',(#127));
#129=FACE_OUTER_BOUND('',#128,.T.);
#130=ADVANCED_FACE('',(#129),#126,.T.);
#131=CARTESIAN_POINT('',(0.15,0.0,0.0));
#132=DIRECTION('',(-1.0,0.0,0.0));
#133=DIRECTION('',(0.0,0.0,1.0));
#134=AXIS2_PLACEMENT_3D('',#131,#132,#133);
#135=PLANE('',#134);
#136=ORIENTED_EDGE('',*,*,#114,.T.);
#137=EDGE_LOOP('',(#136));
#138=FACE_OUTER_BOUND('',#137,.T.);
#139=ADVANCED_FACE('',(#138),#135,.T.);
#140=CLOSED_SHELL('',(#101,#121,#130,#139));
#141=MANIFOLD_SOLID_BREP('Solid2',#140);
#142=COLOUR_RGB('Steel',0.878431379795074,0.874509811401367,0.858823537826538);
#143=FILL_AREA_STYLE_COLOUR('Steel',#142);
#144=FILL_AREA_STYLE('Steel',(#143));
#145=SURFACE_STYLE_FILL_AREA(#144);
#146=SURFACE_SIDE_STYLE('Steel',(#145));
#147=SURFACE_STYLE_USAGE(.BOTH.,#146);
#148=PRESENTATION_STYLE_ASSIGNMENT((#147));
#149=STYLED_ITEM('',(#148),#141);
#150=MECHANICAL_DESIGN_GEOMETRIC_PRESENTATION_REPRESENTATION('',(#149,#575),#42);
#151=ADVANCED_BREP_SHAPE_REPRESENTATION('ABSR',(#141,#574),#42);
#152=SHAPE_REPRESENTATION_RELATIONSHIP('SRR','None',#151,#47);
#158=(NAMED_UNIT(*)PLANE_ANGLE_UNIT()SI_UNIT($,.RADIAN.));
#159=DIMENSIONAL_EXPONENTS(0.0,0.0,0.0,0.0,0.0,0.0,0.0);
#160=PLANE_ANGLE_MEASURE_WITH_UNIT(PLANE_ANGLE_MEASURE(0.0174532925),#158);
#164=(CONVERSION_BASED_UNIT('DEGREE',#160)NAMED_UNIT(#159)PLANE_ANGLE_UNIT());
#168=(NAMED_UNIT(*)SI_UNIT($,.STERADIAN.)SOLID_ANGLE_UNIT());
#172=(LENGTH_UNIT()NAMED_UNIT(*)SI_UNIT(.MILLI.,.METRE.));
#174=UNCERTAINTY_MEASURE_WITH_UNIT(LENGTH_MEASURE(0.000001),#172,'DISTANCE_ACCURACY_VALUE','');
#176=(GEOMETRIC_REPRESENTATION_CONTEXT(3)GLOBAL_UNCERTAINTY_ASSIGNED_CONTEXT((#174))GLOBAL_UNIT_ASSIGNED_CONTEXT((#164,#168,#172))REPRESENTATION_CONTEXT('','3D'));
#177=CARTESIAN_POINT('',(-0.142741335883568,0.0,0.0));
#178=DIRECTION('',(1.0,0.0,0.0));
#179=DIRECTION('',(0.0,0.0,-1.0));
#180=AXIS2_PLACEMENT_3D('',#177,#178,#179);
#181=TOROIDAL_SURFACE('',#180,0.171767940008725,0.016);
#182=CARTESIAN_POINT('',(-0.140368100070133,0.15594492664926,0.0));
#183=VERTEX_POINT('',#182);
#184=CARTESIAN_POINT('',(-0.140368100070133,0.0,-1.909775E-017));
#185=DIRECTION('',(1.0,0.0,0.0));
#186=DIRECTION('',(0.0,-1.0,0.0));
#187=AXIS2_PLACEMENT_3D('',#184,#185,#186);
#188=CIRCLE('',#187,0.15594492664926);
#189=EDGE_CURVE('',#183,#183,#188,.T.);
#190=ORIENTED_EDGE('',*,*,#189,.T.);
#191=EDGE_LOOP('',(#190));
#192=FACE_OUTER_BOUND('',#191,.T.);
#193=CARTESIAN_POINT('',(-0.127286522662943,0.167626835287085,-4.105673E-017));
#194=VERTEX_POINT('',#193);
#195=CARTESIAN_POINT('',(-0.127286522662943,0.0,-2.052837E-017));
#196=DIRECTION('',(-1.0,0.0,0.0));
#197=DIRECTION('',(0.0,-1.0,0.0));
#198=AXIS2_PLACEMENT_3D('',#195,#196,#197);
#199=CIRCLE('',#198,0.167626835287085);
#200=EDGE_CURVE('',#194,#194,#199,.T.);
#201=ORIENTED_EDGE('',*,*,#200,.T.);
#202=EDGE_LOOP('',(#201));
#203=FACE_BOUND('',#202,.T.);
#204=ADVANCED_FACE('',(#192,#203),#181,.F.);
#205=CARTESIAN_POINT('',(-0.22908454738049,0.0,0.0));
#206=DIRECTION('',(1.0,0.0,0.0));
#207=DIRECTION('',(0.0,1.0,0.0));
#208=AXIS2_PLACEMENT_3D('',#205,#206,#207);
#209=CONICAL_SURFACE('',#208,0.142638671689191,8.530000000000023);
#210=CARTESIAN_POINT('',(-0.308736667810393,0.130691941914919,-3.201029E-017));
#211=VERTEX_POINT('',#210);
#212=CARTESIAN_POINT('',(-0.308736667810393,0.0,-1.600515E-017));
#213=DIRECTION('',(-1.0,0.0,0.0));
#214=DIRECTION('',(0.0,-1.0,0.0));
#215=AXIS2_PLACEMENT_3D('',#212,#213,#214);
#216=CIRCLE('',#215,0.130691941914919);
#217=EDGE_CURVE('',#211,#211,#216,.T.);
#218=ORIENTED_EDGE('',*,*,#217,.F.);
#219=EDGE_LOOP('',(#218));
#220=FACE_OUTER_BOUND('',#219,.T.);
#221=ORIENTED_EDGE('',*,*,#189,.F.);
#222=EDGE_LOOP('',(#221));
#223=FACE_BOUND('',#222,.T.);
#224=ADVANCED_FACE('',(#220,#223),#209,.T.);
#225=CARTESIAN_POINT('',(-0.107626242432001,0.0,0.0));
#226=DIRECTION('',(1.0,0.0,0.0));
#227=DIRECTION('',(0.0,1.0,0.0));
#228=AXIS2_PLACEMENT_3D('',#225,#226,#227);
#229=CONICAL_SURFACE('',#228,0.241,75.000000000000014);
#230=CARTESIAN_POINT('',(-0.085252484864003,-0.16225,0.281025243528051));
#231=VERTEX_POINT('',#230);
#232=CARTESIAN_POINT('',(-0.085252484864003,0.16225,0.28102524352805));
#233=VERTEX_POINT('',#232);
#234=CARTESIAN_POINT('',(-0.085252484864003,-0.16225,0.281025243528051));
#235=CARTESIAN_POINT('',(-0.106989863099977,3.644216E-017,0.28102524352805));
#236=CARTESIAN_POINT('',(-0.085252484864003,0.16225,0.28102524352805));
#244=(BOUNDED_CURVE()B_SPLINE_CURVE(2,(#234,#235,#236),.UNSPECIFIED.,.F.,.U.)B_SPLINE_CURVE_WITH_KNOTS((3,3),(0.0,0.82635162995266),.UNSPECIFIED.)CURVE()GEOMETRIC_REPRESENTATION_ITEM()RATIONAL_B_SPLINE_CURVE((1.0,1.15470053837925,1.0))REPRESENTATION_ITEM(''));
#245=EDGE_CURVE('',#231,#233,#244,.T.);
#246=ORIENTED_EDGE('',*,*,#245,.T.);
#247=CARTESIAN_POINT('',(-0.085252484864003,0.3245,0.0));
#248=VERTEX_POINT('',#247);
#249=CARTESIAN_POINT('',(-0.085252484864003,0.16225,0.28102524352805));
#250=CARTESIAN_POINT('',(-0.106989863099977,0.243375,0.140512621764025));
#251=CARTESIAN_POINT('',(-0.085252484864003,0.3245,-8.828063E-017));
#259=(BOUNDED_CURVE()B_SPLINE_CURVE(2,(#249,#250,#251),.UNSPECIFIED.,.F.,.U.)B_SPLINE_CURVE_WITH_KNOTS((3,3),(0.0,0.82635162995266),.UNSPECIFIED.)CURVE()GEOMETRIC_REPRESENTATION_ITEM()RATIONAL_B_SPLINE_CURVE((1.0,1.15470053837925,1.0))REPRESENTATION_ITEM(''));
#260=EDGE_CURVE('',#233,#248,#259,.T.);
#261=ORIENTED_EDGE('',*,*,#260,.T.);
#262=CARTESIAN_POINT('',(-0.085252484864003,0.16225,-0.281025243528051));
#263=VERTEX_POINT('',#262);
#264=CARTESIAN_POINT('',(-0.085252484864003,0.3245,-4.119763E-016));
#265=CARTESIAN_POINT('',(-0.106989863099977,0.243375,-0.140512621764025));
#266=CARTESIAN_POINT('',(-0.085252484864003,0.16225,-0.28102524352805));
#274=(BOUNDED_CURVE()B_SPLINE_CURVE(2,(#264,#265,#266),.UNSPECIFIED.,.F.,.U.)B_SPLINE_CURVE_WITH_KNOTS((3,3),(0.0,0.82635162995266),.UNSPECIFIED.)CURVE()GEOMETRIC_REPRESENTATION_ITEM()RATIONAL_B_SPLINE_CURVE((1.0,1.154700538379254,1.0))REPRESENTATION_ITEM(''));
#275=EDGE_CURVE('',#248,#263,#274,.T.);
#276=ORIENTED_EDGE('',*,*,#275,.T.);
#277=CARTESIAN_POINT('',(-0.085252484864003,-0.16225,-0.28102524352805));
#278=VERTEX_POINT('',#277);
#279=CARTESIAN_POINT('',(-0.085252484864003,0.16225,-0.281025243528051));
#280=CARTESIAN_POINT('',(-0.106989863099977,-1.602509E-016,-0.28102524352805));
#281=CARTESIAN_POINT('',(-0.085252484864003,-0.16225,-0.28102524352805));
#289=(BOUNDED_CURVE()B_SPLINE_CURVE(2,(#279,#280,#281),.UNSPECIFIED.,.F.,.U.)B_SPLINE_CURVE_WITH_KNOTS((3,3),(0.0,0.82635162995266),.UNSPECIFIED.)CURVE()GEOMETRIC_REPRESENTATION_ITEM()RATIONAL_B_SPLINE_CURVE((1.0,1.15470053837925,1.0))REPRESENTATION_ITEM(''));
#290=EDGE_CURVE('',#263,#278,#289,.T.);
#291=ORIENTED_EDGE('',*,*,#290,.T.);
#292=CARTESIAN_POINT('',(-0.085252484864003,-0.3245,1.643804E-016));
#293=VERTEX_POINT('',#292);
#294=CARTESIAN_POINT('',(-0.085252484864003,-0.16225,-0.28102524352805));
#295=CARTESIAN_POINT('',(-0.106989863099977,-0.243375,-0.140512621764025));
#296=CARTESIAN_POINT('',(-0.085252484864003,-0.3245,-2.942688E-017));
#304=(BOUNDED_CURVE()B_SPLINE_CURVE(2,(#294,#295,#296),.UNSPECIFIED.,.F.,.U.)B_SPLINE_CURVE_WITH_KNOTS((3,3),(0.0,0.82635162995266),.UNSPECIFIED.)CURVE()GEOMETRIC_REPRESENTATION_ITEM()RATIONAL_B_SPLINE_CURVE((1.0,1.154700538379255,1.0))REPRESENTATION_ITEM(''));
#305=EDGE_CURVE('',#278,#293,#304,.T.);
#306=ORIENTED_EDGE('',*,*,#305,.T.);
#307=CARTESIAN_POINT('',(-0.085252484864003,-0.3245,2.942688E-016));
#308=CARTESIAN_POINT('',(-0.106989863099977,-0.243375,0.140512621764025));
#309=CARTESIAN_POINT('',(-0.085252484864003,-0.16225,0.28102524352805));
#317=(BOUNDED_CURVE()B_SPLINE_CURVE(2,(#307,#308,#309),.UNSPECIFIED.,.F.,.U.)B_SPLINE_CURVE_WITH_KNOTS((3,3),(0.0,0.82635162995266),.UNSPECIFIED.)CURVE()GEOMETRIC_REPRESENTATION_ITEM()RATIONAL_B_SPLINE_CURVE((1.0,1.15470053837925,1.0))REPRESENTATION_ITEM(''));
#318=EDGE_CURVE('',#293,#231,#317,.T.);
#319=ORIENTED_EDGE('',*,*,#318,.T.);
#320=EDGE_LOOP('',(#246,#261,#276,#291,#306,#319));
#321=FACE_OUTER_BOUND('',#320,.T.);
#322=ORIENTED_EDGE('',*,*,#200,.F.);
#323=EDGE_LOOP('',(#322));
#324=FACE_BOUND('',#323,.T.);
#325=ADVANCED_FACE('',(#321,#324),#229,.T.);
#326=CARTESIAN_POINT('',(-0.313186484960583,0.0,0.0));
#327=DIRECTION('',(1.0,0.0,0.0));
#328=DIRECTION('',(0.0,0.0,-1.0));
#329=AXIS2_PLACEMENT_3D('',#326,#327,#328);
#330=TOROIDAL_SURFACE('',#329,0.160360091963917,0.03);
#331=CARTESIAN_POINT('',(-0.338027063461221,0.143539103296373,0.0));
#332=VERTEX_POINT('',#331);
#333=CARTESIAN_POINT('',(-0.338027063461221,-2.292460E-018,0.0));
#334=DIRECTION('',(1.0,0.0,0.0));
#335=DIRECTION('',(0.0,-1.0,0.0));
#336=AXIS2_PLACEMENT_3D('',#333,#334,#335);
#337=CIRCLE('',#336,0.143539103296373);
#338=EDGE_CURVE('',#332,#332,#337,.T.);
#339=ORIENTED_EDGE('',*,*,#338,.T.);
#340=EDGE_LOOP('',(#339));
#341=FACE_OUTER_BOUND('',#340,.T.);
#342=ORIENTED_EDGE('',*,*,#217,.T.);
#343=EDGE_LOOP('',(#342));
#344=FACE_BOUND('',#343,.T.);
#345=ADVANCED_FACE('',(#341,#344),#330,.F.);
#346=CARTESIAN_POINT('',(-0.55,-2.185478E-017,0.0));
#347=DIRECTION('',(0.0,0.0,1.0));
#348=DIRECTION('',(1.0,0.0,0.0));
#349=AXIS2_PLACEMENT_3D('',#346,#347,#348);
#350=SPHERICAL_SURFACE('',#349,0.256);
#351=CARTESIAN_POINT('',(-0.76,0.14641038214553,0.0));
#352=VERTEX_POINT('',#351);
#353=CARTESIAN_POINT('',(-0.76,0.0,0.0));
#354=DIRECTION('',(1.0,0.0,0.0));
#355=DIRECTION('',(0.0,1.0,0.0));
#356=AXIS2_PLACEMENT_3D('',#353,#354,#355);
#357=CIRCLE('',#356,0.14641038214553);
#358=EDGE_CURVE('',#352,#352,#357,.T.);
#359=ORIENTED_EDGE('',*,*,#358,.T.);
#360=EDGE_LOOP('',(#359));
#361=FACE_OUTER_BOUND('',#360,.T.);
#362=ORIENTED_EDGE('',*,*,#338,.F.);
#363=EDGE_LOOP('',(#362));
#364=FACE_BOUND('',#363,.T.);
#365=ADVANCED_FACE('',(#361,#364),#350,.T.);
#366=CARTESIAN_POINT('',(0.15,0.0,0.0));
#367=DIRECTION('',(-1.0,0.0,0.0));
#368=DIRECTION('',(0.0,0.0,1.0));
#369=AXIS2_PLACEMENT_3D('',#366,#367,#368);
#370=PLANE('',#369);
#371=CARTESIAN_POINT('',(0.15,-0.1575,1.928819E-017));
#372=VERTEX_POINT('',#371);
#373=CARTESIAN_POINT('',(0.15,0.0,0.0));
#374=DIRECTION('',(-1.0,0.0,0.0));
#375=DIRECTION('',(0.0,1.0,0.0));
#376=AXIS2_PLACEMENT_3D('',#373,#374,#375);
#377=CIRCLE('',#376,0.1575);
#378=EDGE_CURVE('',#372,#372,#377,.T.);
#379=ORIENTED_EDGE('',*,*,#378,.F.);
#380=EDGE_LOOP('',(#379));
#381=FACE_OUTER_BOUND('',#380,.T.);
#382=ADVANCED_FACE('',(#381),#370,.F.);
#383=CARTESIAN_POINT('',(0.31,0.0,0.0));
#384=DIRECTION('',(1.0,0.0,0.0));
#385=DIRECTION('',(0.0,1.0,0.0));
#386=AXIS2_PLACEMENT_3D('',#383,#384,#385);
#387=CYLINDRICAL_SURFACE('',#386,0.1575);
#388=ORIENTED_EDGE('',*,*,#378,.T.);
#389=EDGE_LOOP('',(#388));
#390=FACE_OUTER_BOUND('',#389,.T.);
#391=CARTESIAN_POINT('',(1.213184E-033,0.1575,0.0));
#392=VERTEX_POINT('',#391);
#393=CARTESIAN_POINT('',(0.0,0.0,0.0));
#394=DIRECTION('',(1.0,0.0,0.0));
#395=DIRECTION('',(0.0,1.0,0.0));
#396=AXIS2_PLACEMENT_3D('',#393,#394,#395);
#397=CIRCLE('',#396,0.1575);
#398=EDGE_CURVE('',#392,#392,#397,.T.);
#399=ORIENTED_EDGE('',*,*,#398,.T.);
#400=EDGE_LOOP('',(#399));
#401=FACE_BOUND('',#400,.T.);
#402=ADVANCED_FACE('',(#390,#401),#387,.T.);
#403=CARTESIAN_POINT('',(-1.092739E-017,0.241,0.0));
#404=DIRECTION('',(1.0,0.0,0.0));
#405=DIRECTION('',(0.0,0.0,-1.0));
#406=AXIS2_PLACEMENT_3D('',#403,#404,#405);
#407=PLANE('',#406);
#408=CARTESIAN_POINT('',(0.0,-0.16225,0.281025243528051));
#409=VERTEX_POINT('',#408);
#410=CARTESIAN_POINT('',(0.0,-0.3245,1.643804E-016));
#411=VERTEX_POINT('',#410);
#412=CARTESIAN_POINT('',(-1.092739E-017,-0.16225,0.281025243528051));
#413=DIRECTION('',(0.0,-0.5,-0.866025403784438));
#414=VECTOR('',#413,0.3245);
#415=LINE('',#412,#414);
#416=EDGE_CURVE('',#409,#411,#415,.T.);
#417=ORIENTED_EDGE('',*,*,#416,.T.);
#418=CARTESIAN_POINT('',(0.0,-0.16225,-0.28102524352805));
#419=VERTEX_POINT('',#418);
#420=CARTESIAN_POINT('',(-1.092739E-017,-0.3245,1.804112E-016));
#421=DIRECTION('',(0.0,0.5,-0.866025403784439));
#422=VECTOR('',#421,0.3245);
#423=LINE('',#420,#422);
#424=EDGE_CURVE('',#411,#419,#423,.T.);
#425=ORIENTED_EDGE('',*,*,#424,.T.);
#426=CARTESIAN_POINT('',(0.0,0.16225,-0.281025243528051));
#427=VERTEX_POINT('',#426);
#428=CARTESIAN_POINT('',(-1.092739E-017,-0.16225,-0.28102524352805));
#429=DIRECTION('',(0.0,1.0,0.0));
#430=VECTOR('',#429,0.3245);
#431=LINE('',#428,#430);
#432=EDGE_CURVE('',#419,#427,#431,.T.);
#433=ORIENTED_EDGE('',*,*,#432,.T.);
#434=CARTESIAN_POINT('',(-2.185478E-017,0.3245,0.0));
#435=VERTEX_POINT('',#434);
#436=CARTESIAN_POINT('',(-1.092739E-017,0.16225,-0.281025243528051));
#437=DIRECTION('',(0.0,0.500000000000001,0.866025403784438));
#438=VECTOR('',#437,0.3245);
#439=LINE('',#436,#438);
#440=EDGE_CURVE('',#427,#435,#439,.T.);
#441=ORIENTED_EDGE('',*,*,#440,.T.);
#442=CARTESIAN_POINT('',(0.0,0.16225,0.28102524352805));
#443=VERTEX_POINT('',#442);
#444=CARTESIAN_POINT('',(-1.092739E-017,0.3245,-7.285839E-017));
#445=DIRECTION('',(0.0,-0.499999999999999,0.866025403784439));
#446=VECTOR('',#445,0.3245);
#447=LINE('',#444,#446);
#448=EDGE_CURVE('',#435,#443,#447,.T.);
#449=ORIENTED_EDGE('',*,*,#448,.T.);
#450=CARTESIAN_POINT('',(-1.092739E-017,0.16225,0.28102524352805));
#451=DIRECTION('',(0.0,-1.0,0.0));
#452=VECTOR('',#451,0.3245);
#453=LINE('',#450,#452);
#454=EDGE_CURVE('',#443,#409,#453,.T.);
#455=ORIENTED_EDGE('',*,*,#454,.T.);
#456=EDGE_LOOP('',(#417,#425,#433,#441,#449,#455));
#457=FACE_OUTER_BOUND('',#456,.T.);
#458=ORIENTED_EDGE('',*,*,#398,.F.);
#459=EDGE_LOOP('',(#458));
#460=FACE_BOUND('',#459,.T.);
#461=ADVANCED_FACE('',(#457,#460),#407,.T.);
#462=CARTESIAN_POINT('',(0.0,-0.16225,0.281025243528051));
#463=DIRECTION('',(0.0,-0.866025403784438,0.5));
#464=DIRECTION('',(1.0,0.0,0.0));
#465=AXIS2_PLACEMENT_3D('',#462,#463,#464);
#466=PLANE('',#465);
#467=ORIENTED_EDGE('',*,*,#318,.F.);
#468=CARTESIAN_POINT('',(0.0,-0.3245,2.622574E-016));
#469=DIRECTION('',(-1.0,0.0,0.0));
#470=VECTOR('',#469,0.085252484864003);
#471=LINE('',#468,#470);
#472=EDGE_CURVE('',#411,#293,#471,.T.);
#473=ORIENTED_EDGE('',*,*,#472,.F.);
#474=ORIENTED_EDGE('',*,*,#416,.F.);
#475=CARTESIAN_POINT('',(0.0,-0.16225,0.28102524352805));
#476=DIRECTION('',(-1.0,0.0,0.0));
#477=VECTOR('',#476,0.085252484864003);
#478=LINE('',#475,#477);
#479=EDGE_CURVE('',#409,#231,#478,.T.);
#480=ORIENTED_EDGE('',*,*,#479,.T.);
#481=EDGE_LOOP('',(#467,#473,#474,#480));
#482=FACE_OUTER_BOUND('',#481,.T.);
#483=ADVANCED_FACE('',(#482),#466,.T.);
#484=CARTESIAN_POINT('',(0.0,-0.3245,1.643804E-016));
#485=DIRECTION('',(0.0,-0.866025403784439,-0.5));
#486=DIRECTION('',(0.0,0.5,-0.866025403784439));
#487=AXIS2_PLACEMENT_3D('',#484,#485,#486);
#488=PLANE('',#487);
#489=ORIENTED_EDGE('',*,*,#305,.F.);
#490=CARTESIAN_POINT('',(0.0,-0.16225,-0.28102524352805));
#491=DIRECTION('',(-1.0,0.0,0.0));
#492=VECTOR('',#491,0.085252484864003);
#493=LINE('',#490,#492);
#494=EDGE_CURVE('',#419,#278,#493,.T.);
#495=ORIENTED_EDGE('',*,*,#494,.F.);
#496=ORIENTED_EDGE('',*,*,#424,.F.);
#497=ORIENTED_EDGE('',*,*,#472,.T.);
#498=EDGE_LOOP('',(#489,#495,#496,#497));
#499=FACE_OUTER_BOUND('',#498,.T.);
#500=ADVANCED_FACE('',(#499),#488,.T.);
#501=CARTESIAN_POINT('',(0.0,-0.16225,-0.28102524352805));
#502=DIRECTION('',(0.0,0.0,-1.0));
#503=DIRECTION('',(-1.0,0.0,0.0));
#504=AXIS2_PLACEMENT_3D('',#501,#502,#503);
#505=PLANE('',#504);
#506=ORIENTED_EDGE('',*,*,#290,.F.);
#507=CARTESIAN_POINT('',(0.0,0.16225,-0.281025243528051));
#508=DIRECTION('',(-1.0,0.0,0.0));
#509=VECTOR('',#508,0.085252484864003);
#510=LINE('',#507,#509);
#511=EDGE_CURVE('',#427,#263,#510,.T.);
#512=ORIENTED_EDGE('',*,*,#511,.F.);
#513=ORIENTED_EDGE('',*,*,#432,.F.);
#514=ORIENTED_EDGE('',*,*,#494,.T.);
#515=EDGE_LOOP('',(#506,#512,#513,#514));
#516=FACE_OUTER_BOUND('',#515,.T.);
#517=ADVANCED_FACE('',(#516),#505,.T.);
#518=CARTESIAN_POINT('',(0.0,0.16225,-0.281025243528051));
#519=DIRECTION('',(0.0,0.866025403784438,-0.500000000000001));
#520=DIRECTION('',(-1.0,0.0,0.0));
#521=AXIS2_PLACEMENT_3D('',#518,#519,#520);
#522=PLANE('',#521);
#523=ORIENTED_EDGE('',*,*,#275,.F.);
#524=CARTESIAN_POINT('',(-2.081668E-017,0.3245,-3.933861E-016));
#525=DIRECTION('',(-1.0,0.0,0.0));
#526=VECTOR('',#525,0.085252484864003);
#527=LINE('',#524,#526);
#528=EDGE_CURVE('',#435,#248,#527,.T.);
#529=ORIENTED_EDGE('',*,*,#528,.F.);
#530=ORIENTED_EDGE('',*,*,#440,.F.);
#531=ORIENTED_EDGE('',*,*,#511,.T.);
#532=EDGE_LOOP('',(#523,#529,#530,#531));
#533=FACE_OUTER_BOUND('',#532,.T.);
#534=ADVANCED_FACE('',(#533),#522,.T.);
#535=CARTESIAN_POINT('',(0.0,0.3245,-2.450126E-016));
#536=DIRECTION('',(0.0,0.866025403784439,0.499999999999999));
#537=DIRECTION('',(0.0,-0.499999999999999,0.866025403784439));
#538=AXIS2_PLACEMENT_3D('',#535,#536,#537);
#539=PLANE('',#538);
#540=ORIENTED_EDGE('',*,*,#260,.F.);
#541=CARTESIAN_POINT('',(-0.085252484864002,0.16225,0.28102524352805));
#542=DIRECTION('',(1.0,0.0,0.0));
#543=VECTOR('',#542,0.085252484864002);
#544=LINE('',#541,#543);
#545=EDGE_CURVE('',#233,#443,#544,.T.);
#546=ORIENTED_EDGE('',*,*,#545,.T.);
#547=ORIENTED_EDGE('',*,*,#448,.F.);
#548=ORIENTED_EDGE('',*,*,#528,.T.);
#549=EDGE_LOOP('',(#540,#546,#547,#548));
#550=FACE_OUTER_BOUND('',#549,.T.);
#551=ADVANCED_FACE('',(#550),#539,.T.);
#552=CARTESIAN_POINT('',(0.0,0.16225,0.28102524352805));
#553=DIRECTION('',(0.0,0.0,1.0));
#554=DIRECTION('',(1.0,0.0,0.0));
#555=AXIS2_PLACEMENT_3D('',#552,#553,#554);
#556=PLANE('',#555);
#557=ORIENTED_EDGE('',*,*,#245,.F.);
#558=ORIENTED_EDGE('',*,*,#479,.F.);
#559=ORIENTED_EDGE('',*,*,#454,.F.);
#560=ORIENTED_EDGE('',*,*,#545,.F.);
#561=EDGE_LOOP('',(#557,#558,#559,#560));
#562=FACE_OUTER_BOUND('',#561,.T.);
#563=ADVANCED_FACE('',(#562),#556,.T.);
#564=CARTESIAN_POINT('',(-0.76,0.073205191072765,0.0));
#565=DIRECTION('',(-1.0,0.0,0.0));
#566=DIRECTION('',(0.0,0.0,1.0));
#567=AXIS2_PLACEMENT_3D('',#564,#565,#566);
#568=PLANE('',#567);
#569=ORIENTED_EDGE('',*,*,#358,.F.);
#570=EDGE_LOOP('',(#569));
#571=FACE_OUTER_BOUND('',#570,.T.);
#572=ADVANCED_FACE('',(#571),#568,.T.);
#573=CLOSED_SHELL('',(#204,#224,#325,#345,#365,#382,#402,#461,#483,#500,#517,#534,#551,#563,#572));
#574=MANIFOLD_SOLID_BREP('Solid3',#573);
#575=STYLED_ITEM('',(#148),#574);
ENDSEC;
END-ISO-10303-21;
